Feed The Machine Accordi e Tab – Nickelback

Feed The Machine Accordi e Tab – Nickelback

Feed The Machine Accordi e Tab : I Nickelback sono un gruppo rock canadese, formatosi nel 1995 ad Hanna (Alberta). Hanno venduto più di 50 milioni di dischi

Feed The Machine Accordi e Tab – Nickelback. In questo sito puoi trovare migliaia di canzoni con testo, accordi e tab da suonare con la chitarra. Ti piace questa canzone? Vedi tutti testi e gli accordi di  Nickelback, oppure vedi la lista complteta degli  ARTISTI STRANIERI in ordine alfabetico.
 Nickelback è archiviato nella lettera    N degli  ARTISTI STRANIERI
Di seguito il testo e gli accordi della canzone.

Feed The Machine Accordi e Tab – Nickelback

Tuning: Drop A (BF#DAEA)


Intro 
B |---------------------------|
F#|---------------------------|
D |---------------------------| Play
A |---------------------------|  x4
E |----------5----------------|
A |--0-6-0-6---0-6-0-8-0-7-0--|
     * * * * * * * * * * * *

B |---------------------------------|---------------------------------|
F#|---------------------------------|---------------------------------|
D |---------------------------------|---------------------------------|
A |---------------------------------|---------------------------------|
E |----------5----------------------|---------5-----------------------|
A |--0-6-0-6---0-6-0-8-0-7-0-5-0-3--|-0-6-0-6---0-6-0-8-0-7-0---------|

B |---------------------------------|----------------------------------|
F#|---------------------------------|----------------------------------|
D |---------------------------------|----------------------------------|
A |---------------------------------|----------------------------------|
E |----------5----------------------|---------5------------------------|
A |--0-6-0-6---0-6-0-8-0-7-0-5-0-3--|-0-6-0-6---0-6-0-8-0-7-0-5-0-3h6--|

Verse 1
B |-----|------------------------|
F#|-----|------------------------|
D |-----|------------------------|
A |--0--|----------8-3-5---------|
E |--0--|----------8-3-5---------|
A |--0--|----------8-3-5--0-3h6--|

B |--------------------------------------------------------------------------------|
F#|--------------------------------------------------------------------------------|
D |--------------------------------------------------------------------------------|
A |--0--------0------------------------------------0--------0--------8-3-5---------|
E |--0--------0--------6-5------------6-5-------6--0--------0--------8-3-5---------|
A |--0--0-3h6-0--0-3h6-----6-0--0-3h6-----6-0-3----0--0-3h6-0--0-3h6-8-3-5--0-3h6--|

Pre-chorus
B |------------------------------|
F#|------------------------------|
D |------------------------------| Play
A |------------------------------|  x3
E |----------5-------------------|
A |--0-6-0-6---0-6-0-8-0-7-0-5-0-|

B |-----------------------------------|
F#|-----------------------------------|
D |-----------------------------------| 
A |-----------------------------------|  
E |----------5------------------------|
A |--0-6-0-6---0-6-0-8-0-7-0-5-0-3h6--|

Chorus
B |------------------|-----------------|------------------|
F#|------------------|-----------------|------------------|
D |------------------|-----------------|------------------|
A |--8-8-8-8-8-8-8-8-|-5-5-5-5-5-5-5-5-|-0-0-0-0-0-0-0----|
E |--8-8-8-8-8-8-8-8-|-5-5-5-5-5-5-5-5-|-0-0-0-0-0-0-0----|
A |--8-8-8-8-8-8-8-8-|-5-5-5-5-5-5-5-5-|-0-0-0-0-0-0-0----|

B |------------------|---------------------|
F#|------------------|---------------------|
D |------------------|---------------------|
A |--8-8-8-8-8-8-8-8-|-10-10-10-10-5-5-5-5-|
E |--8-8-8-8-8-8-8-8-|-10-10-10-10-5-5-5-5-|
A |--8-8-8-8-8-8-8-8-|-10-10-10-10-5-5-5-5-|

B |---------------------------|----------------------|
F#|---------------------------|----------------------|
D |---------------------------|----------------------|
A |---------------------------|----------------------|
E |---------------------------|-------------5--------|
A |-0-0--0--0-0-0--0--0-0h3-6-|-0-0--0--0-0----0--0--|

Post-chorus
B |---------------------------------|---------------------------------|
F#|---------------------------------|---------------------------------|
D |---------------------------------|---------------------------------|
A |---------------------------------|---------------------------------|
E |----------5----------------------|---------5-----------------------|
A |--0-6-0-6---0-6-0-8-0-7-0-5-0-3--|-0-6-0-6---0-6-0-8-0-7-0---------|

B |---------------------------------|----------------------------------|
F#|---------------------------------|----------------------------------|
D |---------------------------------|----------------------------------|
A |---------------------------------|----------------------------------|
E |----------5----------------------|---------5------------------------|
A |--0-6-0-6---0-6-0-8-0-7-0-5-0-3--|-0-6-0-6---0-6-0-8-0-7-0-5-0-3h6--|

Verse 2
B |--------------------------------------------------------------------------------|
F#|--------------------------------------------------------------------------------|
D |--------------------------------------------------------------------------------| Play
A |--0--------0------------------------------------0--------0--------8-3-5---------|  x2
E |--0--------0--------6-5------------6-5-------6--0--------0--------8-3-5---------|
A |--0--0-3h6-0--0-3h6-----6-0--0-3h6-----6-0-3----0--0-3h6-0--0-3h6-8-3-5--0-3h6--|

Pre-chorus
B |------------------------------|
F#|------------------------------|
D |------------------------------| Play
A |------------------------------|  x2
E |----------5-------------------|
A |--0-6-0-6---0-6-0-8-0-7-0-5-0-|

B |------------------------------|
F#|------------------------------|
D |------------------------------| 
A |--------------------------0---|  
E |----------5---------------0---|
A |--0-6-0-6---0-6-0-8-0-7---0---|

B |-----------------------------------|
F#|-----------------------------------|
D |-----------------------------------| 
A |-----------------------------------|  
E |----------5------------------------|
A |--0-6-0-6---0-6-0-8-0-7-0-5-0-3h6--|

Chorus
B |------------------|-----------------|------------------|
F#|------------------|-----------------|------------------|
D |------------------|-----------------|------------------|
A |--8-8-8-8-8-8-8-8-|-5-5-5-5-5-5-5-5-|-0-0-0-0-0-0-0-0--|
E |--8-8-8-8-8-8-8-8-|-5-5-5-5-5-5-5-5-|-0-0-0-0-0-0-0-0--|
A |--8-8-8-8-8-8-8-8-|-5-5-5-5-5-5-5-5-|-0-0-0-0-0-0-0-0--|

B |------------------|---------------------|
F#|------------------|---------------------|
D |------------------|---------------------|
A |--8-8-8-8-8-8-8-8-|-10-10-10-10-5-5-5-5-|
E |--8-8-8-8-8-8-8-8-|-10-10-10-10-5-5-5-5-|
A |--8-8-8-8-8-8-8-8-|-10-10-10-10-5-5-5-5-|

B |---------------------------|------------------------------|
F#|---------------------------|------------------------------|
D |---------------------------|------------------------------|
A |---------------------------|------------------------------|
E |---------------------------|-------------5-------6-5------|
A |-0-0--0--0-0-0--0--0—0h3-6-|-0-0--0--0-0----0--0-----3-6--|

B |---------------------------|------------------------------|
F#|---------------------------|------------------------------|
D |---------------------------|------------------------------|
A |---------------------------|------------------------------|
E |---------------------------|-------------5-------6-5------|
A |-0-0--0--0-0-0--0--0—0h3-6-|-0-0--0--0-0----0--0-----3-6--|

Now you want to sleep… (No guitar)
Then

Bridge
B |------------------------------------|------------------------------------|
F#|------------------------------------|------------------------------------|
D |------------------------------------|------------------------------------| Play
A |------------------------------------|------------------------------------|  x2
E |------------------------------------|-------------------------8-7-0-3h7--|
A |--0-0-8-0-11-0-0-8-0-11-0-0-7-0-5h7-|-0-0-8-0-11-0-0-8-0-11-0------------|

Chorus
B |------------------|-----------------|------------------|
F#|------------------|-----------------|------------------|
D |------------------|-----------------|------------------|
A |--8-8-8-8-8-8-8-8-|-5-5-5-5-5-5-5-5-|-0-0-0-0-0-0-0-0--|
E |--8-8-8-8-8-8-8-8-|-5-5-5-5-5-5-5-5-|-0-0-0-0-0-0-0-0--|
A |--8-8-8-8-8-8-8-8-|-5-5-5-5-5-5-5-5-|-0-0-0-0-0-0-0-0--|

B |------------------|---------------------|
F#|------------------|---------------------|
D |------------------|---------------------|
A |--8-8-8-8-8-8-8-8-|-10-10-10-10-5-5-5-5-|
E |--8-8-8-8-8-8-8-8-|-10-10-10-10-5-5-5-5-|
A |--8-8-8-8-8-8-8-8-|-10-10-10-10-5-5-5-5-|

Outro
B |------------------|-----------------|-----------------|------------------|
F#|------------------|-----------------|-----------------|------------------|
D |------------------|-----------------|-----------------|------------------|
A |--5-5-5-5-5-5-5-5-|-5-5-5-5-5-5-5-5-|-4-4-4-4-4-4-4-4-|-4-4-4-4-4-4-4-4--|
E |--5-5-5-5-5-5-5-5-|-5-5-5-5-5-5-5-5-|-5-5-5-5-5-5-5-5-|-5-5-5-5-5-5-5-5--|
A |--5-5-5-5-5-5-5-5-|-5-5-5-5-5-5-5-5-|-4-4-4-4-4-4-4-4-|-4-4-4-4-4-4-4-4--|

B |------------------|-----------------|-----------------|-----------------|------------------|
F#|------------------|-----------------|-----------------|-----------------|------------------|
D |------------------|-----------------|-----------------|-----------------|------------------|
A |--5-5-5-5-5-5-5-5-|-5-5-5-5-5-5-5-5-|-4-4-4-4-4-4-4-4-|-----------------|------------------|
E |--5-5-5-5-5-5-5-5-|-5-5-5-5-5-5-5-5-|-5-5-5-5-5-5-5-5-|-5-----6-5-------|-5-----6-5--------|
A |--5-5-5-5-5-5-5-5-|-5-5-5-5-5-5-5-5-|-4-4-4-4-4-4-4-4-|---0-0-----0-3-6-|---0-0-----0-3-6--|

B |------------------|-----------------|-----------------|------------------|
F#|------------------|-----------------|-----------------|------------------|
D |------------------|-----------------|-----------------|------------------|
A |--5-5-5-5-5-5-5-5-|-5-5-5-5-5-5-5-5-|-4-4-4-4-4-4-4-4-|-4-4-4-4-4-4-4-4--|
E |--5-5-5-5-5-5-5-5-|-5-5-5-5-5-5-5-5-|-5-5-5-5-5-5-5-5-|-5-5-5-5-5-5-5-5--|
A |--5-5-5-5-5-5-5-5-|-5-5-5-5-5-5-5-5-|-4-4-4-4-4-4-4-4-|-4-4-4-4-4-4-4-4--|

B |------------------|-----------------|-----------------|-----------------|------------------|
F#|------------------|-----------------|-----------------|-----------------|------------------|
D |------------------|-----------------|-----------------|-----------------|------------------|
A |--5-5-5-5-5-5-5-5-|-5-5-5-5-5-5-5-5-|-4-4-4-4-4-4-4-4-|-----------------|------------------|
E |--5-5-5-5-5-5-5-5-|-5-5-5-5-5-5-5-5-|-5-5-5-5-5-5-5-5-|-5-----6-5-------|-5-----6-5--------|
A |--5-5-5-5-5-5-5-5-|-5-5-5-5-5-5-5-5-|-4-4-4-4-4-4-4-4-|---0-0-----0-3-6-|---0-0-----0-3-6--|
 
Guitar, drums and bass fade out.

Key:
Hammer on: h
Palm mute: *

Feed The Machine Accordi e Tab – Nickelback

Rating: 5.0. From 1 vote.
Please wait...

Feed The Machine Accordi e Tab – Nickelback

Potrebbero interessarti anche...

Lascia un commento

Il tuo indirizzo email non sarà pubblicato. I campi obbligatori sono contrassegnati *

*